ISO-10303-21;
HEADER;
/* Generated by software containing ST-Developer
 * from STEP Tools, Inc. (www.steptools.com) 
 */
/* OPTION: using custom renumber hook */

FILE_DESCRIPTION(
/* description */ ('STEP AP203'),
/* implementation_level */ '2;1');

FILE_NAME(
/* name */ 'FJ-M16x1.5BJ',
/* time_stamp */ '2024-05-13T13:47:44+02:00',
/* author */ ('License CC BY-ND 4.0'),
/* organization */ ('CADENAS'),
/* preprocessor_version */ 'ST-DEVELOPER v19.3',
/* originating_system */ 'PARTsolutions',
/* authorisation */ '  ');

FILE_SCHEMA (('CONFIG_CONTROL_DESIGN'));
ENDSEC;

DATA;
#10=PROPERTY_DEFINITION_REPRESENTATION(#14,#12);
#11=PROPERTY_DEFINITION_REPRESENTATION(#15,#13);
#12=REPRESENTATION('',(#16),#513);
#13=REPRESENTATION('',(#17),#513);
#14=PROPERTY_DEFINITION('pmi validation property','',#518);
#15=PROPERTY_DEFINITION('pmi validation property','',#518);
#16=VALUE_REPRESENTATION_ITEM('number of annotations',COUNT_MEASURE(0.));
#17=VALUE_REPRESENTATION_ITEM('number of views',COUNT_MEASURE(0.));
#18=SHAPE_REPRESENTATION_RELATIONSHIP('','',#279,#19);
#19=ADVANCED_BREP_SHAPE_REPRESENTATION('',(#277),#513);
#20=SPHERICAL_SURFACE('',#296,20.);
#21=CONICAL_SURFACE('',#294,17.9071884971219,0.461558705692862);
#22=CONICAL_SURFACE('',#300,17.9071884971219,0.461558705692862);
#23=CONICAL_SURFACE('',#314,7.188,0.785398163397453);
#24=B_SPLINE_CURVE_WITH_KNOTS('',3,(#425,#426,#427,#428,#429,#430,#431,
#432,#433,#434,#435,#436,#437,#438,#439),.UNSPECIFIED.,.F.,.F.,(4,1,1,1,
1,1,1,1,1,1,1,1,4),(3.6799042000401E-18,0.001166959843511,0.002333919687022,
0.003500879530533,0.004667839374044,0.007001759061066,0.009335678748088,
0.01166959843511,0.014003518122132,0.015170477965643,0.016337437809154,
0.017504397652665,0.018671357496176),.UNSPECIFIED.);
#25=B_SPLINE_CURVE_WITH_KNOTS('',3,(#444,#445,#446,#447,#448,#449,#450,
#451,#452,#453,#454,#455,#456,#457,#458),.UNSPECIFIED.,.F.,.F.,(4,1,1,1,
1,1,1,1,1,1,1,1,4),(0.,0.001166959843511,0.00233391968702199,0.00350087953053299,
0.00466783937404399,0.00700175906106598,0.00933567874808797,0.01166959843511,
0.014003518122132,0.015170477965643,0.0163374378091539,0.0175043976526649,
0.0186713574961759),.UNSPECIFIED.);
#26=B_SPLINE_CURVE_WITH_KNOTS('',3,(#465,#466,#467,#468,#469),
 .UNSPECIFIED.,.F.,.F.,(4,1,4),(7.978331183399E-7,0.00880476788413717,0.017608737935156),
 .UNSPECIFIED.);
#27=B_SPLINE_CURVE_WITH_KNOTS('',3,(#470,#471,#472,#473,#474),
 .UNSPECIFIED.,.F.,.F.,(4,1,4),(7.978331183399E-7,0.00880476788413718,0.017608737935156),
 .UNSPECIFIED.);
#28=B_SPLINE_CURVE_WITH_KNOTS('',3,(#482,#483,#484,#485,#486),
 .UNSPECIFIED.,.F.,.F.,(4,1,4),(0.0367416284689873,0.0455745886363219,0.0544075488036564),
 .UNSPECIFIED.);
#29=B_SPLINE_CURVE_WITH_KNOTS('',3,(#487,#488,#489,#490,#491),
 .UNSPECIFIED.,.F.,.F.,(4,1,4),(0.0367416284689874,0.0455745886363219,0.0544075488036564),
 .UNSPECIFIED.);
#30=CYLINDRICAL_SURFACE('',#285,12.0000000000001);
#31=CYLINDRICAL_SURFACE('',#287,12.0000000000001);
#32=CYLINDRICAL_SURFACE('',#291,10.4);
#33=CYLINDRICAL_SURFACE('',#305,8.);
#34=CYLINDRICAL_SURFACE('',#306,2.9);
#35=CYLINDRICAL_SURFACE('',#307,2.9);
#36=CYLINDRICAL_SURFACE('',#312,7.188);
#37=LINE('',#400,#47);
#38=LINE('',#404,#48);
#39=LINE('',#408,#49);
#40=LINE('',#410,#50);
#41=LINE('',#414,#51);
#42=LINE('',#416,#52);
#43=LINE('',#422,#53);
#44=LINE('',#423,#54);
#45=LINE('',#495,#55);
#46=LINE('',#499,#56);
#47=VECTOR('',#321,1000.);
#48=VECTOR('',#324,1000.);
#49=VECTOR('',#329,1000.);
#50=VECTOR('',#330,1000.);
#51=VECTOR('',#335,1000.);
#52=VECTOR('',#336,1000.);
#53=VECTOR('',#343,1000.);
#54=VECTOR('',#344,1000.);
#55=VECTOR('',#369,1000.);
#56=VECTOR('',#374,1000.);
#57=ORIENTED_EDGE('',*,*,#121,.F.);
#58=ORIENTED_EDGE('',*,*,#122,.F.);
#59=ORIENTED_EDGE('',*,*,#123,.F.);
#60=ORIENTED_EDGE('',*,*,#124,.F.);
#61=ORIENTED_EDGE('',*,*,#125,.T.);
#62=ORIENTED_EDGE('',*,*,#126,.F.);
#63=ORIENTED_EDGE('',*,*,#123,.T.);
#64=ORIENTED_EDGE('',*,*,#127,.F.);
#65=ORIENTED_EDGE('',*,*,#128,.F.);
#66=ORIENTED_EDGE('',*,*,#129,.F.);
#67=ORIENTED_EDGE('',*,*,#121,.T.);
#68=ORIENTED_EDGE('',*,*,#130,.F.);
#69=ORIENTED_EDGE('',*,*,#131,.F.);
#70=ORIENTED_EDGE('',*,*,#132,.F.);
#71=ORIENTED_EDGE('',*,*,#133,.F.);
#72=ORIENTED_EDGE('',*,*,#131,.T.);
#73=ORIENTED_EDGE('',*,*,#134,.F.);
#74=ORIENTED_EDGE('',*,*,#128,.T.);
#75=ORIENTED_EDGE('',*,*,#125,.F.);
#76=ORIENTED_EDGE('',*,*,#135,.F.);
#77=ORIENTED_EDGE('',*,*,#136,.T.);
#78=ORIENTED_EDGE('',*,*,#137,.F.);
#79=ORIENTED_EDGE('',*,*,#138,.T.);
#80=ORIENTED_EDGE('',*,*,#139,.T.);
#81=ORIENTED_EDGE('',*,*,#140,.T.);
#82=ORIENTED_EDGE('',*,*,#136,.F.);
#83=ORIENTED_EDGE('',*,*,#141,.F.);
#84=ORIENTED_EDGE('',*,*,#142,.F.);
#85=ORIENTED_EDGE('',*,*,#139,.F.);
#86=ORIENTED_EDGE('',*,*,#143,.T.);
#87=ORIENTED_EDGE('',*,*,#144,.F.);
#88=ORIENTED_EDGE('',*,*,#145,.F.);
#89=ORIENTED_EDGE('',*,*,#138,.F.);
#90=ORIENTED_EDGE('',*,*,#146,.T.);
#91=ORIENTED_EDGE('',*,*,#144,.T.);
#92=ORIENTED_EDGE('',*,*,#147,.F.);
#93=ORIENTED_EDGE('',*,*,#141,.T.);
#94=ORIENTED_EDGE('',*,*,#148,.T.);
#95=ORIENTED_EDGE('',*,*,#145,.T.);
#96=ORIENTED_EDGE('',*,*,#143,.F.);
#97=ORIENTED_EDGE('',*,*,#149,.T.);
#98=ORIENTED_EDGE('',*,*,#142,.T.);
#99=ORIENTED_EDGE('',*,*,#146,.F.);
#100=ORIENTED_EDGE('',*,*,#150,.F.);
#101=ORIENTED_EDGE('',*,*,#140,.F.);
#102=ORIENTED_EDGE('',*,*,#147,.T.);
#103=ORIENTED_EDGE('',*,*,#149,.F.);
#104=ORIENTED_EDGE('',*,*,#150,.T.);
#105=ORIENTED_EDGE('',*,*,#137,.T.);
#106=ORIENTED_EDGE('',*,*,#135,.T.);
#107=ORIENTED_EDGE('',*,*,#148,.F.);
#108=ORIENTED_EDGE('',*,*,#129,.T.);
#109=ORIENTED_EDGE('',*,*,#133,.T.);
#110=ORIENTED_EDGE('',*,*,#127,.T.);
#111=ORIENTED_EDGE('',*,*,#122,.T.);
#112=ORIENTED_EDGE('',*,*,#126,.T.);
#113=ORIENTED_EDGE('',*,*,#134,.T.);
#114=ORIENTED_EDGE('',*,*,#130,.T.);
#115=ORIENTED_EDGE('',*,*,#124,.T.);
#116=ORIENTED_EDGE('',*,*,#151,.T.);
#117=ORIENTED_EDGE('',*,*,#152,.T.);
#118=ORIENTED_EDGE('',*,*,#151,.F.);
#119=ORIENTED_EDGE('',*,*,#132,.T.);
#120=ORIENTED_EDGE('',*,*,#152,.F.);
#121=EDGE_CURVE('',#153,#154,#175,.T.);
#122=EDGE_CURVE('',#155,#153,#37,.T.);
#123=EDGE_CURVE('',#156,#155,#176,.T.);
#124=EDGE_CURVE('',#154,#156,#38,.T.);
#125=EDGE_CURVE('',#157,#157,#177,.T.);
#126=EDGE_CURVE('',#156,#158,#39,.T.);
#127=EDGE_CURVE('',#159,#155,#40,.F.);
#128=EDGE_CURVE('',#158,#159,#178,.T.);
#129=EDGE_CURVE('',#153,#160,#41,.T.);
#130=EDGE_CURVE('',#161,#154,#42,.F.);
#131=EDGE_CURVE('',#160,#161,#179,.T.);
#132=EDGE_CURVE('',#162,#162,#180,.T.);
#133=EDGE_CURVE('',#160,#159,#43,.T.);
#134=EDGE_CURVE('',#158,#161,#44,.T.);
#135=EDGE_CURVE('',#163,#164,#24,.T.);
#136=EDGE_CURVE('',#163,#165,#181,.T.);
#137=EDGE_CURVE('',#166,#165,#25,.T.);
#138=EDGE_CURVE('',#166,#164,#182,.T.);
#139=EDGE_CURVE('',#167,#168,#183,.T.);
#140=EDGE_CURVE('',#168,#165,#26,.T.);
#141=EDGE_CURVE('',#167,#163,#27,.T.);
#142=EDGE_CURVE('',#168,#169,#184,.F.);
#143=EDGE_CURVE('',#167,#170,#185,.F.);
#144=EDGE_CURVE('',#169,#170,#186,.T.);
#145=EDGE_CURVE('',#164,#170,#28,.T.);
#146=EDGE_CURVE('',#166,#169,#29,.T.);
#147=EDGE_CURVE('',#171,#171,#187,.T.);
#148=EDGE_CURVE('',#163,#164,#45,.T.);
#149=EDGE_CURVE('',#172,#172,#188,.T.);
#150=EDGE_CURVE('',#165,#166,#46,.T.);
#151=EDGE_CURVE('',#173,#173,#189,.T.);
#152=EDGE_CURVE('',#174,#174,#190,.T.);
#153=VERTEX_POINT('',#398);
#154=VERTEX_POINT('',#399);
#155=VERTEX_POINT('',#401);
#156=VERTEX_POINT('',#403);
#157=VERTEX_POINT('',#406);
#158=VERTEX_POINT('',#409);
#159=VERTEX_POINT('',#411);
#160=VERTEX_POINT('',#415);
#161=VERTEX_POINT('',#417);
#162=VERTEX_POINT('',#421);
#163=VERTEX_POINT('',#440);
#164=VERTEX_POINT('',#441);
#165=VERTEX_POINT('',#443);
#166=VERTEX_POINT('',#459);
#167=VERTEX_POINT('',#463);
#168=VERTEX_POINT('',#464);
#169=VERTEX_POINT('',#477);
#170=VERTEX_POINT('',#479);
#171=VERTEX_POINT('',#494);
#172=VERTEX_POINT('',#498);
#173=VERTEX_POINT('',#507);
#174=VERTEX_POINT('',#510);
#175=CIRCLE('',#282,12.0000000000001);
#176=CIRCLE('',#283,12.0000000000001);
#177=CIRCLE('',#284,10.4);
#178=CIRCLE('',#286,12.0000000000001);
#179=CIRCLE('',#288,12.0000000000001);
#180=CIRCLE('',#290,8.);
#181=CIRCLE('',#292,10.4);
#182=CIRCLE('',#293,10.4);
#183=CIRCLE('',#295,17.9071884971219);
#184=CIRCLE('',#297,18.5404962177392);
#185=CIRCLE('',#298,18.5404962177392);
#186=CIRCLE('',#299,17.9071884971219);
#187=CIRCLE('',#302,8.);
#188=CIRCLE('',#304,8.);
#189=CIRCLE('',#311,7.188);
#190=CIRCLE('',#313,7.188);
#191=EDGE_LOOP('',(#57,#58,#59,#60));
#192=EDGE_LOOP('',(#61));
#193=EDGE_LOOP('',(#62,#63,#64,#65));
#194=EDGE_LOOP('',(#66,#67,#68,#69));
#195=EDGE_LOOP('',(#70));
#196=EDGE_LOOP('',(#71,#72,#73,#74));
#197=EDGE_LOOP('',(#75));
#198=EDGE_LOOP('',(#76,#77,#78,#79));
#199=EDGE_LOOP('',(#80,#81,#82,#83));
#200=EDGE_LOOP('',(#84,#85,#86,#87));
#201=EDGE_LOOP('',(#88,#89,#90,#91));
#202=EDGE_LOOP('',(#92));
#203=EDGE_LOOP('',(#93,#94,#95,#96));
#204=EDGE_LOOP('',(#97));
#205=EDGE_LOOP('',(#98,#99,#100,#101));
#206=EDGE_LOOP('',(#102));
#207=EDGE_LOOP('',(#103));
#208=EDGE_LOOP('',(#104,#105));
#209=EDGE_LOOP('',(#106,#107));
#210=EDGE_LOOP('',(#108,#109,#110,#111));
#211=EDGE_LOOP('',(#112,#113,#114,#115));
#212=EDGE_LOOP('',(#116));
#213=EDGE_LOOP('',(#117));
#214=EDGE_LOOP('',(#118));
#215=EDGE_LOOP('',(#119));
#216=EDGE_LOOP('',(#120));
#217=FACE_BOUND('',#191,.T.);
#218=FACE_BOUND('',#192,.T.);
#219=FACE_BOUND('',#193,.T.);
#220=FACE_BOUND('',#194,.T.);
#221=FACE_BOUND('',#195,.T.);
#222=FACE_BOUND('',#196,.T.);
#223=FACE_BOUND('',#197,.T.);
#224=FACE_BOUND('',#198,.T.);
#225=FACE_BOUND('',#199,.T.);
#226=FACE_BOUND('',#200,.T.);
#227=FACE_BOUND('',#201,.T.);
#228=FACE_BOUND('',#202,.T.);
#229=FACE_BOUND('',#203,.T.);
#230=FACE_BOUND('',#204,.T.);
#231=FACE_BOUND('',#205,.T.);
#232=FACE_BOUND('',#206,.T.);
#233=FACE_BOUND('',#207,.T.);
#234=FACE_BOUND('',#208,.T.);
#235=FACE_BOUND('',#209,.T.);
#236=FACE_BOUND('',#210,.T.);
#237=FACE_BOUND('',#211,.T.);
#238=FACE_BOUND('',#212,.T.);
#239=FACE_BOUND('',#213,.T.);
#240=FACE_BOUND('',#214,.T.);
#241=FACE_BOUND('',#215,.T.);
#242=FACE_BOUND('',#216,.T.);
#243=PLANE('',#281);
#244=PLANE('',#289);
#245=PLANE('',#301);
#246=PLANE('',#303);
#247=PLANE('',#308);
#248=PLANE('',#309);
#249=PLANE('',#310);
#250=ADVANCED_FACE('',(#217,#218),#243,.F.);
#251=ADVANCED_FACE('',(#219),#30,.T.);
#252=ADVANCED_FACE('',(#220),#31,.T.);
#253=ADVANCED_FACE('',(#221,#222),#244,.F.);
#254=ADVANCED_FACE('',(#223,#224),#32,.T.);
#255=ADVANCED_FACE('',(#225),#21,.T.);
#256=ADVANCED_FACE('',(#226),#20,.T.);
#257=ADVANCED_FACE('',(#227),#22,.T.);
#258=ADVANCED_FACE('',(#228,#229),#245,.T.);
#259=ADVANCED_FACE('',(#230,#231),#246,.F.);
#260=ADVANCED_FACE('',(#232,#233),#33,.F.);
#261=ADVANCED_FACE('',(#234),#34,.F.);
#262=ADVANCED_FACE('',(#235),#35,.F.);
#263=ADVANCED_FACE('',(#236),#247,.T.);
#264=ADVANCED_FACE('',(#237),#248,.T.);
#265=ADVANCED_FACE('',(#238),#249,.T.);
#266=ADVANCED_FACE('',(#239,#240),#36,.F.);
#267=ADVANCED_FACE('',(#241,#242),#23,.F.);
#268=CLOSED_SHELL('',(#250,#251,#252,#253,#254,#255,#256,#257,#258,#259,
#260,#261,#262,#263,#264,#265,#266,#267));
#269=STYLED_ITEM('',(#270),#277);
#270=PRESENTATION_STYLE_ASSIGNMENT((#271));
#271=SURFACE_STYLE_USAGE(.BOTH.,#272);
#272=SURFACE_SIDE_STYLE('',(#273));
#273=SURFACE_STYLE_FILL_AREA(#274);
#274=FILL_AREA_STYLE('',(#275));
#275=FILL_AREA_STYLE_COLOUR('',#276);
#276=COLOUR_RGB('',0.689999997615814,0.689999997615814,0.689999997615814);
#277=MANIFOLD_SOLID_BREP('FJ-M16x1.5BJ',#268);
#278=SHAPE_DEFINITION_REPRESENTATION(#518,#279);
#279=SHAPE_REPRESENTATION('FJ-M16x1.5BJ',(#280),#513);
#280=AXIS2_PLACEMENT_3D('',#395,#315,#316);
#281=AXIS2_PLACEMENT_3D('',#396,#317,#318);
#282=AXIS2_PLACEMENT_3D('',#397,#319,#320);
#283=AXIS2_PLACEMENT_3D('',#402,#322,#323);
#284=AXIS2_PLACEMENT_3D('',#405,#325,#326);
#285=AXIS2_PLACEMENT_3D('',#407,#327,#328);
#286=AXIS2_PLACEMENT_3D('',#412,#331,#332);
#287=AXIS2_PLACEMENT_3D('',#413,#333,#334);
#288=AXIS2_PLACEMENT_3D('',#418,#337,#338);
#289=AXIS2_PLACEMENT_3D('',#419,#339,#340);
#290=AXIS2_PLACEMENT_3D('',#420,#341,#342);
#291=AXIS2_PLACEMENT_3D('',#424,#345,#346);
#292=AXIS2_PLACEMENT_3D('',#442,#347,#348);
#293=AXIS2_PLACEMENT_3D('',#460,#349,#350);
#294=AXIS2_PLACEMENT_3D('',#461,#351,#352);
#295=AXIS2_PLACEMENT_3D('',#462,#353,#354);
#296=AXIS2_PLACEMENT_3D('',#475,#355,#356);
#297=AXIS2_PLACEMENT_3D('',#476,#357,#358);
#298=AXIS2_PLACEMENT_3D('',#478,#359,#360);
#299=AXIS2_PLACEMENT_3D('',#480,#361,#362);
#300=AXIS2_PLACEMENT_3D('',#481,#363,#364);
#301=AXIS2_PLACEMENT_3D('',#492,#365,#366);
#302=AXIS2_PLACEMENT_3D('',#493,#367,#368);
#303=AXIS2_PLACEMENT_3D('',#496,#370,#371);
#304=AXIS2_PLACEMENT_3D('',#497,#372,#373);
#305=AXIS2_PLACEMENT_3D('',#500,#375,#376);
#306=AXIS2_PLACEMENT_3D('',#501,#377,#378);
#307=AXIS2_PLACEMENT_3D('',#502,#379,#380);
#308=AXIS2_PLACEMENT_3D('',#503,#381,#382);
#309=AXIS2_PLACEMENT_3D('',#504,#383,#384);
#310=AXIS2_PLACEMENT_3D('',#505,#385,#386);
#311=AXIS2_PLACEMENT_3D('',#506,#387,#388);
#312=AXIS2_PLACEMENT_3D('',#508,#389,#390);
#313=AXIS2_PLACEMENT_3D('',#509,#391,#392);
#314=AXIS2_PLACEMENT_3D('',#511,#393,#394);
#315=DIRECTION('',(0.,0.,1.));
#316=DIRECTION('',(1.,0.,0.));
#317=DIRECTION('',(1.19418947186572E-16,-1.,0.));
#318=DIRECTION('',(1.,1.19418947186572E-16,0.));
#319=DIRECTION('',(1.19418947186572E-16,-1.,0.));
#320=DIRECTION('',(1.,1.19418947186572E-16,0.));
#321=DIRECTION('',(1.,0.,0.));
#322=DIRECTION('',(1.19418947186572E-16,-1.,0.));
#323=DIRECTION('',(1.,1.19418947186572E-16,0.));
#324=DIRECTION('',(-1.,0.,0.));
#325=DIRECTION('',(1.19418947186572E-16,-1.,0.));
#326=DIRECTION('',(1.,1.19418947186572E-16,0.));
#327=DIRECTION('',(1.19418947186572E-16,-1.,0.));
#328=DIRECTION('',(1.,1.19418947186572E-16,0.));
#329=DIRECTION('',(1.19418947186572E-16,-1.,0.));
#330=DIRECTION('',(1.19418947186572E-16,-1.,0.));
#331=DIRECTION('',(1.19418947186572E-16,-1.,0.));
#332=DIRECTION('',(1.,1.19418947186572E-16,0.));
#333=DIRECTION('',(1.19418947186572E-16,-1.,0.));
#334=DIRECTION('',(1.,1.19418947186572E-16,0.));
#335=DIRECTION('',(1.19418947186572E-16,-1.,0.));
#336=DIRECTION('',(1.19418947186572E-16,-1.,0.));
#337=DIRECTION('',(1.19418947186572E-16,-1.,0.));
#338=DIRECTION('',(1.,1.19418947186572E-16,0.));
#339=DIRECTION('',(-1.19418947186572E-16,1.,0.));
#340=DIRECTION('',(-1.,-1.19418947186572E-16,0.));
#341=DIRECTION('',(6.12323399573676E-17,-1.,0.));
#342=DIRECTION('',(1.,6.12323399573676E-17,0.));
#343=DIRECTION('',(-1.,-1.19418947186572E-16,0.));
#344=DIRECTION('',(1.,1.19418947186572E-16,0.));
#345=DIRECTION('',(1.19418947186572E-16,-1.,0.));
#346=DIRECTION('',(1.,1.19418947186572E-16,0.));
#347=DIRECTION('',(0.,-1.,0.));
#348=DIRECTION('',(0.,0.,-1.));
#349=DIRECTION('',(0.,-1.,0.));
#350=DIRECTION('',(0.,0.,-1.));
#351=DIRECTION('',(0.,1.,0.));
#352=DIRECTION('',(0.,0.,1.));
#353=DIRECTION('',(0.,-1.,0.));
#354=DIRECTION('',(0.,0.,-1.));
#355=DIRECTION('',(0.,-1.,0.));
#356=DIRECTION('',(1.,0.,0.));
#357=DIRECTION('',(0.,0.,1.));
#358=DIRECTION('',(1.,0.,0.));
#359=DIRECTION('',(0.,0.,1.));
#360=DIRECTION('',(1.,0.,0.));
#361=DIRECTION('',(0.,-1.,0.));
#362=DIRECTION('',(0.,0.,-1.));
#363=DIRECTION('',(0.,1.,0.));
#364=DIRECTION('',(0.,0.,1.));
#365=DIRECTION('',(0.,0.,1.));
#366=DIRECTION('',(1.,0.,0.));
#367=DIRECTION('',(0.,0.,1.));
#368=DIRECTION('',(1.,0.,0.));
#369=DIRECTION('',(1.,0.,0.));
#370=DIRECTION('',(0.,0.,1.));
#371=DIRECTION('',(1.,0.,0.));
#372=DIRECTION('',(0.,0.,1.));
#373=DIRECTION('',(1.,0.,0.));
#374=DIRECTION('',(1.,0.,0.));
#375=DIRECTION('',(0.,0.,-1.));
#376=DIRECTION('',(-1.,0.,0.));
#377=DIRECTION('',(-1.,0.,0.));
#378=DIRECTION('',(0.,0.,1.));
#379=DIRECTION('',(-1.,0.,0.));
#380=DIRECTION('',(0.,0.,1.));
#381=DIRECTION('',(0.,0.,-1.));
#382=DIRECTION('',(-1.,0.,0.));
#383=DIRECTION('',(0.,0.,1.));
#384=DIRECTION('',(1.,0.,0.));
#385=DIRECTION('',(6.12323399573676E-17,-1.,0.));
#386=DIRECTION('',(1.,6.12323399573676E-17,0.));
#387=DIRECTION('',(6.12323399573676E-17,-1.,0.));
#388=DIRECTION('',(1.,6.12323399573676E-17,0.));
#389=DIRECTION('',(6.12323399573676E-17,-1.,0.));
#390=DIRECTION('',(1.,6.12323399573676E-17,0.));
#391=DIRECTION('',(6.12323399573676E-17,-1.,0.));
#392=DIRECTION('',(1.,6.12323399573676E-17,0.));
#393=DIRECTION('',(6.12323399573676E-17,-1.,0.));
#394=DIRECTION('',(1.,6.12323399573676E-17,0.));
#395=CARTESIAN_POINT('',(0.,0.,0.));
#396=CARTESIAN_POINT('',(10.4,-50.,0.));
#397=CARTESIAN_POINT('',(-5.37385262339572E-14,-50.,0.));
#398=CARTESIAN_POINT('',(5.80947501931118,-50.,-10.5));
#399=CARTESIAN_POINT('',(5.80947501931118,-50.,10.5));
#400=CARTESIAN_POINT('',(-6.59621103361625,-50.,-10.5));
#401=CARTESIAN_POINT('',(-5.80947501931129,-50.,-10.5));
#402=CARTESIAN_POINT('',(-5.37385262339572E-14,-50.,0.));
#403=CARTESIAN_POINT('',(-5.80947501931129,-50.,10.5));
#404=CARTESIAN_POINT('',(6.59621103361614,-50.,10.5));
#405=CARTESIAN_POINT('',(-5.37385262339572E-14,-50.,0.));
#406=CARTESIAN_POINT('',(10.4,-50.,0.));
#407=CARTESIAN_POINT('',(-5.19472420261586E-14,-65.,0.));
#408=CARTESIAN_POINT('',(-5.80947501931128,-65.,10.5));
#409=CARTESIAN_POINT('',(-5.80947501931128,-65.,10.5));
#410=CARTESIAN_POINT('',(-5.80947501931128,-65.,-10.5));
#411=CARTESIAN_POINT('',(-5.80947501931128,-65.,-10.5));
#412=CARTESIAN_POINT('',(-5.19472420261586E-14,-65.,0.));
#413=CARTESIAN_POINT('',(-5.19472420261586E-14,-65.,0.));
#414=CARTESIAN_POINT('',(5.80947501931118,-65.,-10.5));
#415=CARTESIAN_POINT('',(5.80947501931118,-65.,-10.5));
#416=CARTESIAN_POINT('',(5.80947501931118,-65.,10.5));
#417=CARTESIAN_POINT('',(5.80947501931118,-65.,10.5));
#418=CARTESIAN_POINT('',(-5.19472420261586E-14,-65.,0.));
#419=CARTESIAN_POINT('',(12.,-65.,0.));
#420=CARTESIAN_POINT('',(3.9801020972289E-15,-65.,0.));
#421=CARTESIAN_POINT('',(8.,-65.,0.));
#422=CARTESIAN_POINT('',(12.,-65.,-10.5));
#423=CARTESIAN_POINT('',(12.,-65.,10.5));
#424=CARTESIAN_POINT('',(-5.19472420261586E-14,-65.,0.));
#425=CARTESIAN_POINT('',(-7.20485947121815,-24.,7.49999999999998));
#426=CARTESIAN_POINT('',(-7.20485947121815,-24.3955302680538,7.49999999999998));
#427=CARTESIAN_POINT('',(-7.03356553207287,-25.1657876947955,7.66947268889277));
#428=CARTESIAN_POINT('',(-6.37604403983917,-25.9979737776944,8.23666390531048));
#429=CARTESIAN_POINT('',(-5.49725489206341,-26.4839477313929,8.85203352041778));
#430=CARTESIAN_POINT('',(-4.15822197016817,-26.8246244489642,9.58715926092144));
#431=CARTESIAN_POINT('',(-2.31171941374294,-26.9067266620264,10.2289897709621));
#432=CARTESIAN_POINT('',(-0.00110800651819306,-26.8966466460649,10.4857059826224));
#433=CARTESIAN_POINT('',(2.31671425102128,-26.906686753714,10.2281862960103));
#434=CARTESIAN_POINT('',(4.16119086618048,-26.8244094712087,9.58586650708822));
#435=CARTESIAN_POINT('',(5.50126330992547,-26.4824930357418,8.84957585114057));
#436=CARTESIAN_POINT('',(6.3788056288687,-25.995610114675,8.2344305475662));
#437=CARTESIAN_POINT('',(7.0344224574643,-25.1630880947057,7.66862555576376));
#438=CARTESIAN_POINT('',(7.20485947121804,-24.3950481932385,7.49999999999997));
#439=CARTESIAN_POINT('',(7.20485947121804,-24.,7.49999999999997));
#440=CARTESIAN_POINT('',(-7.20485947121812,-24.,7.49999999999998));
#441=CARTESIAN_POINT('',(7.20485947121802,-24.,7.5));
#442=CARTESIAN_POINT('',(0.,-24.,0.));
#443=CARTESIAN_POINT('',(-7.20485947121814,-24.,-7.49999999999998));
#444=CARTESIAN_POINT('',(7.20485947121803,-24.,-7.49999999999998));
#445=CARTESIAN_POINT('',(7.20485947121803,-24.3955302680538,-7.49999999999998));
#446=CARTESIAN_POINT('',(7.03356553207276,-25.1657876947955,-7.66947268889277));
#447=CARTESIAN_POINT('',(6.37604403983906,-25.9979737776944,-8.23666390531048));
#448=CARTESIAN_POINT('',(5.4972548920633,-26.4839477313929,-8.85203352041778));
#449=CARTESIAN_POINT('',(4.15822197016806,-26.8246244489642,-9.58715926092143));
#450=CARTESIAN_POINT('',(2.31171941374284,-26.9067266620265,-10.2289897709621));
#451=CARTESIAN_POINT('',(0.00110800651808796,-26.8966466460649,-10.4857059826224));
#452=CARTESIAN_POINT('',(-2.31671425102139,-26.906686753714,-10.2281862960103));
#453=CARTESIAN_POINT('',(-4.1611908661806,-26.8244094712087,-9.58586650708822));
#454=CARTESIAN_POINT('',(-5.50126330992557,-26.4824930357418,-8.84957585114058));
#455=CARTESIAN_POINT('',(-6.37880562886881,-25.995610114675,-8.2344305475662));
#456=CARTESIAN_POINT('',(-7.03442245746441,-25.1630880947057,-7.66862555576376));
#457=CARTESIAN_POINT('',(-7.20485947121815,-24.3950481932385,-7.49999999999998));
#458=CARTESIAN_POINT('',(-7.20485947121815,-24.,-7.49999999999998));
#459=CARTESIAN_POINT('',(7.20485947121803,-24.,-7.49999999999998));
#460=CARTESIAN_POINT('',(0.,-24.,0.));
#461=CARTESIAN_POINT('',(0.,-8.90688498458051,0.));
#462=CARTESIAN_POINT('',(0.,-8.90688498458051,0.));
#463=CARTESIAN_POINT('',(-16.260916329391,-8.90688498458051,7.5));
#464=CARTESIAN_POINT('',(-16.260916329391,-8.90688498458051,-7.5));
#465=CARTESIAN_POINT('',(-16.260916329391,-8.90688498458051,-7.5));
#466=CARTESIAN_POINT('',(-14.8505761029998,-11.4816823977079,-7.5));
#467=CARTESIAN_POINT('',(-11.9817853481412,-16.5983091629318,-7.5));
#468=CARTESIAN_POINT('',(-8.91460676673865,-21.6186366715144,-7.5));
#469=CARTESIAN_POINT('',(-7.20485947121806,-23.9999999999999,-7.5));
#470=CARTESIAN_POINT('',(-16.260916329391,-8.90688498458051,7.5));
#471=CARTESIAN_POINT('',(-14.8505761029998,-11.4816823977079,7.5));
#472=CARTESIAN_POINT('',(-11.9817853481412,-16.5983091629318,7.5));
#473=CARTESIAN_POINT('',(-8.91460676673864,-21.6186366715144,7.5));
#474=CARTESIAN_POINT('',(-7.20485947121805,-24.,7.5));
#475=CARTESIAN_POINT('',(-1.73472347597681E-15,0.,0.));
#476=CARTESIAN_POINT('',(-1.73472347597681E-15,0.,-7.5));
#477=CARTESIAN_POINT('',(16.260916329391,-8.90688498458051,-7.5));
#478=CARTESIAN_POINT('',(-1.73472347597681E-15,0.,7.5));
#479=CARTESIAN_POINT('',(16.260916329391,-8.90688498458051,7.5));
#480=CARTESIAN_POINT('',(0.,-8.90688498458051,0.));
#481=CARTESIAN_POINT('',(0.,-8.90688498458051,0.));
#482=CARTESIAN_POINT('',(7.20485947121802,-24.,7.5));
#483=CARTESIAN_POINT('',(8.91289010470037,-21.621027665807,7.5));
#484=CARTESIAN_POINT('',(11.9816508945036,-16.5987942186546,7.5));
#485=CARTESIAN_POINT('',(14.8504251300352,-11.4819580225476,7.5));
#486=CARTESIAN_POINT('',(16.260916329391,-8.9068849845805,7.5));
#487=CARTESIAN_POINT('',(7.20485947121802,-24.,-7.5));
#488=CARTESIAN_POINT('',(8.91289010470038,-21.621027665807,-7.5));
#489=CARTESIAN_POINT('',(11.9816508945037,-16.5987942186546,-7.5));
#490=CARTESIAN_POINT('',(14.8504251300352,-11.4819580225476,-7.5));
#491=CARTESIAN_POINT('',(16.260916329391,-8.9068849845805,-7.5));
#492=CARTESIAN_POINT('',(-1.04083408558608E-14,-5.42101086242752E-15,7.5));
#493=CARTESIAN_POINT('',(0.,0.,7.5));
#494=CARTESIAN_POINT('',(8.,0.,7.5));
#495=CARTESIAN_POINT('',(10.4,-24.,7.5));
#496=CARTESIAN_POINT('',(-1.04083408558608E-14,-5.42101086242752E-15,-7.5));
#497=CARTESIAN_POINT('',(0.,0.,-7.5));
#498=CARTESIAN_POINT('',(8.,0.,-7.5));
#499=CARTESIAN_POINT('',(10.4,-24.,-7.5));
#500=CARTESIAN_POINT('',(0.,0.,7.5));
#501=CARTESIAN_POINT('',(10.5,-24.,-10.4));
#502=CARTESIAN_POINT('',(10.5,-24.,10.4));
#503=CARTESIAN_POINT('',(-6.59621103361625,-50.,-10.5));
#504=CARTESIAN_POINT('',(6.59621103361614,-50.,10.5));
#505=CARTESIAN_POINT('',(2.32682891837997E-15,-38.,0.));
#506=CARTESIAN_POINT('',(2.32682891837997E-15,-38.,0.));
#507=CARTESIAN_POINT('',(7.188,-38.,0.));
#508=CARTESIAN_POINT('',(3.9801020972289E-15,-65.,0.));
#509=CARTESIAN_POINT('',(3.93038143718352E-15,-64.188,0.));
#510=CARTESIAN_POINT('',(7.188,-64.188,0.));
#511=CARTESIAN_POINT('',(3.93038143718352E-15,-64.188,0.));
#512=MECHANICAL_DESIGN_GEOMETRIC_PRESENTATION_REPRESENTATION('',(#269),
#513);
#513=(
GEOMETRIC_REPRESENTATION_CONTEXT(3)
GLOBAL_UNCERTAINTY_ASSIGNED_CONTEXT((#514))
GLOBAL_UNIT_ASSIGNED_CONTEXT((#517,#516,#515))
REPRESENTATION_CONTEXT('FJ-M16x1.5BJ','TOP_LEVEL_ASSEMBLY_PART')
);
#514=UNCERTAINTY_MEASURE_WITH_UNIT(LENGTH_MEASURE(0.005),#517,
'DISTANCE_ACCURACY_VALUE','Maximum Tolerance applied to model');
#515=(
NAMED_UNIT(*)
SI_UNIT($,.STERADIAN.)
SOLID_ANGLE_UNIT()
);
#516=(
NAMED_UNIT(*)
PLANE_ANGLE_UNIT()
SI_UNIT($,.RADIAN.)
);
#517=(
LENGTH_UNIT()
NAMED_UNIT(*)
SI_UNIT(.MILLI.,.METRE.)
);
#518=PRODUCT_DEFINITION_SHAPE('','',#519);
#519=PRODUCT_DEFINITION('','',#521,#520);
#520=DESIGN_CONTEXT('',#527,'design');
#521=PRODUCT_DEFINITION_FORMATION_WITH_SPECIFIED_SOURCE('','',#523,
 .NOT_KNOWN.);
#522=PRODUCT_RELATED_PRODUCT_CATEGORY('','',(#523));
#523=PRODUCT('FJ-M16x1.5BJ','FJ-M16x1.5BJ','FJ-M16x1.5BJ',(#525));
#524=PRODUCT_CATEGORY('','');
#525=MECHANICAL_CONTEXT('',#527,'mechanical');
#526=APPLICATION_PROTOCOL_DEFINITION('international standard',
'config_control_design',2010,#527);
#527=APPLICATION_CONTEXT(
'configuration controlled 3D designs of mechanical parts and assemblie
s');
ENDSEC;
END-ISO-10303-21;
