ISO-10303-21;
HEADER;
/* Generated by software containing ST-Developer
 * from STEP Tools, Inc. (www.steptools.com) 
 */
/* OPTION: using custom renumber hook */

FILE_DESCRIPTION(
/* description */ ('STEP AP203'),
/* implementation_level */ '2;1');

FILE_NAME(
/* name */ 'PSE-06G',
/* time_stamp */ '2024-05-13T08:23:59+02:00',
/* author */ ('License CC BY-ND 4.0'),
/* organization */ ('CADENAS'),
/* preprocessor_version */ 'ST-DEVELOPER v19.3',
/* originating_system */ 'PARTsolutions',
/* authorisation */ '  ');

FILE_SCHEMA (('CONFIG_CONTROL_DESIGN'));
ENDSEC;

DATA;
#10=PROPERTY_DEFINITION_REPRESENTATION(#14,#12);
#11=PROPERTY_DEFINITION_REPRESENTATION(#15,#13);
#12=REPRESENTATION('',(#16),#163);
#13=REPRESENTATION('',(#17),#163);
#14=PROPERTY_DEFINITION('pmi validation property','',#168);
#15=PROPERTY_DEFINITION('pmi validation property','',#168);
#16=VALUE_REPRESENTATION_ITEM('number of annotations',COUNT_MEASURE(0.));
#17=VALUE_REPRESENTATION_ITEM('number of views',COUNT_MEASURE(0.));
#18=SHAPE_REPRESENTATION_RELATIONSHIP('','',#99,#19);
#19=ADVANCED_BREP_SHAPE_REPRESENTATION('',(#97),#163);
#20=SPHERICAL_SURFACE('',#106,6.7);
#21=PLANE('',#104);
#22=PLANE('',#110);
#23=PLANE('',#111);
#24=ORIENTED_EDGE('',*,*,#36,.F.);
#25=ORIENTED_EDGE('',*,*,#37,.T.);
#26=ORIENTED_EDGE('',*,*,#38,.F.);
#27=ORIENTED_EDGE('',*,*,#36,.T.);
#28=ORIENTED_EDGE('',*,*,#39,.F.);
#29=ORIENTED_EDGE('',*,*,#40,.F.);
#30=ORIENTED_EDGE('',*,*,#39,.T.);
#31=ORIENTED_EDGE('',*,*,#37,.F.);
#32=ORIENTED_EDGE('',*,*,#40,.T.);
#33=ORIENTED_EDGE('',*,*,#41,.T.);
#34=ORIENTED_EDGE('',*,*,#38,.T.);
#35=ORIENTED_EDGE('',*,*,#41,.F.);
#36=EDGE_CURVE('',#42,#42,#48,.T.);
#37=EDGE_CURVE('',#43,#43,#49,.T.);
#38=EDGE_CURVE('',#44,#44,#50,.T.);
#39=EDGE_CURVE('',#45,#45,#51,.T.);
#40=EDGE_CURVE('',#46,#46,#52,.T.);
#41=EDGE_CURVE('',#47,#47,#53,.T.);
#42=VERTEX_POINT('',#145);
#43=VERTEX_POINT('',#147);
#44=VERTEX_POINT('',#150);
#45=VERTEX_POINT('',#153);
#46=VERTEX_POINT('',#156);
#47=VERTEX_POINT('',#160);
#48=CIRCLE('',#102,4.863);
#49=CIRCLE('',#103,4.863);
#50=CIRCLE('',#105,2.6);
#51=CIRCLE('',#107,6.7);
#52=CIRCLE('',#109,6.7);
#53=CIRCLE('',#112,2.6);
#54=EDGE_LOOP('',(#24));
#55=EDGE_LOOP('',(#25));
#56=EDGE_LOOP('',(#26));
#57=EDGE_LOOP('',(#27));
#58=EDGE_LOOP('',(#28));
#59=EDGE_LOOP('',(#29));
#60=EDGE_LOOP('',(#30));
#61=EDGE_LOOP('',(#31));
#62=EDGE_LOOP('',(#32));
#63=EDGE_LOOP('',(#33));
#64=EDGE_LOOP('',(#34));
#65=EDGE_LOOP('',(#35));
#66=FACE_BOUND('',#54,.T.);
#67=FACE_BOUND('',#55,.T.);
#68=FACE_BOUND('',#56,.T.);
#69=FACE_BOUND('',#57,.T.);
#70=FACE_BOUND('',#58,.T.);
#71=FACE_BOUND('',#59,.T.);
#72=FACE_BOUND('',#60,.T.);
#73=FACE_BOUND('',#61,.T.);
#74=FACE_BOUND('',#62,.T.);
#75=FACE_BOUND('',#63,.T.);
#76=FACE_BOUND('',#64,.T.);
#77=FACE_BOUND('',#65,.T.);
#78=CYLINDRICAL_SURFACE('',#101,4.863);
#79=CYLINDRICAL_SURFACE('',#108,6.7);
#80=CYLINDRICAL_SURFACE('',#113,2.6);
#81=ADVANCED_FACE('',(#66,#67),#78,.T.);
#82=ADVANCED_FACE('',(#68,#69),#21,.F.);
#83=ADVANCED_FACE('',(#70),#20,.T.);
#84=ADVANCED_FACE('',(#71,#72),#79,.T.);
#85=ADVANCED_FACE('',(#73,#74),#22,.F.);
#86=ADVANCED_FACE('',(#75),#23,.T.);
#87=ADVANCED_FACE('',(#76,#77),#80,.F.);
#88=CLOSED_SHELL('',(#81,#82,#83,#84,#85,#86,#87));
#89=STYLED_ITEM('',(#90),#97);
#90=PRESENTATION_STYLE_ASSIGNMENT((#91));
#91=SURFACE_STYLE_USAGE(.BOTH.,#92);
#92=SURFACE_SIDE_STYLE('',(#93));
#93=SURFACE_STYLE_FILL_AREA(#94);
#94=FILL_AREA_STYLE('',(#95));
#95=FILL_AREA_STYLE_COLOUR('',#96);
#96=COLOUR_RGB('',0.689999997615814,0.689999997615814,0.689999997615814);
#97=MANIFOLD_SOLID_BREP('PSE-06G',#88);
#98=SHAPE_DEFINITION_REPRESENTATION(#168,#99);
#99=SHAPE_REPRESENTATION('PSE-06G',(#100),#163);
#100=AXIS2_PLACEMENT_3D('',#142,#114,#115);
#101=AXIS2_PLACEMENT_3D('',#143,#116,#117);
#102=AXIS2_PLACEMENT_3D('',#144,#118,#119);
#103=AXIS2_PLACEMENT_3D('',#146,#120,#121);
#104=AXIS2_PLACEMENT_3D('',#148,#122,#123);
#105=AXIS2_PLACEMENT_3D('',#149,#124,#125);
#106=AXIS2_PLACEMENT_3D('',#151,#126,#127);
#107=AXIS2_PLACEMENT_3D('',#152,#128,#129);
#108=AXIS2_PLACEMENT_3D('',#154,#130,#131);
#109=AXIS2_PLACEMENT_3D('',#155,#132,#133);
#110=AXIS2_PLACEMENT_3D('',#157,#134,#135);
#111=AXIS2_PLACEMENT_3D('',#158,#136,#137);
#112=AXIS2_PLACEMENT_3D('',#159,#138,#139);
#113=AXIS2_PLACEMENT_3D('',#161,#140,#141);
#114=DIRECTION('',(0.,0.,1.));
#115=DIRECTION('',(1.,0.,0.));
#116=DIRECTION('',(0.,-1.,0.));
#117=DIRECTION('',(0.,0.,-1.));
#118=DIRECTION('',(0.,-1.,0.));
#119=DIRECTION('',(0.,0.,-1.));
#120=DIRECTION('',(0.,-1.,0.));
#121=DIRECTION('',(0.,0.,-1.));
#122=DIRECTION('',(0.,1.,0.));
#123=DIRECTION('',(0.,0.,1.));
#124=DIRECTION('',(0.,-1.,0.));
#125=DIRECTION('',(0.,0.,-1.));
#126=DIRECTION('',(0.,-1.,0.));
#127=DIRECTION('',(1.,0.,0.));
#128=DIRECTION('',(0.,-1.,0.));
#129=DIRECTION('',(0.,0.,-1.));
#130=DIRECTION('',(0.,-1.,0.));
#131=DIRECTION('',(0.,0.,-1.));
#132=DIRECTION('',(0.,-1.,0.));
#133=DIRECTION('',(0.,0.,-1.));
#134=DIRECTION('',(0.,1.,0.));
#135=DIRECTION('',(0.,0.,1.));
#136=DIRECTION('',(0.,-1.,0.));
#137=DIRECTION('',(0.,0.,-1.));
#138=DIRECTION('',(0.,-1.,0.));
#139=DIRECTION('',(0.,0.,-1.));
#140=DIRECTION('',(0.,-1.,0.));
#141=DIRECTION('',(0.,0.,-1.));
#142=CARTESIAN_POINT('',(0.,0.,0.));
#143=CARTESIAN_POINT('',(0.,-7.,0.));
#144=CARTESIAN_POINT('',(0.,-7.,0.));
#145=CARTESIAN_POINT('',(0.,-7.,-4.863));
#146=CARTESIAN_POINT('',(0.,0.,0.));
#147=CARTESIAN_POINT('',(0.,0.,-4.863));
#148=CARTESIAN_POINT('',(4.863,-7.,0.));
#149=CARTESIAN_POINT('',(0.,-7.,0.));
#150=CARTESIAN_POINT('',(0.,-7.,-2.6));
#151=CARTESIAN_POINT('',(0.,18.3,0.));
#152=CARTESIAN_POINT('',(0.,18.3,0.));
#153=CARTESIAN_POINT('',(0.,18.3,-6.7));
#154=CARTESIAN_POINT('',(0.,0.,0.));
#155=CARTESIAN_POINT('',(0.,0.,0.));
#156=CARTESIAN_POINT('',(0.,0.,-6.7));
#157=CARTESIAN_POINT('',(6.7,0.,0.));
#158=CARTESIAN_POINT('',(0.,0.,0.));
#159=CARTESIAN_POINT('',(0.,0.,0.));
#160=CARTESIAN_POINT('',(0.,0.,-2.6));
#161=CARTESIAN_POINT('',(0.,-7.,0.));
#162=MECHANICAL_DESIGN_GEOMETRIC_PRESENTATION_REPRESENTATION('',(#89),#163);
#163=(
GEOMETRIC_REPRESENTATION_CONTEXT(3)
GLOBAL_UNCERTAINTY_ASSIGNED_CONTEXT((#164))
GLOBAL_UNIT_ASSIGNED_CONTEXT((#167,#166,#165))
REPRESENTATION_CONTEXT('PSE-06G','TOP_LEVEL_ASSEMBLY_PART')
);
#164=UNCERTAINTY_MEASURE_WITH_UNIT(LENGTH_MEASURE(0.005),#167,
'DISTANCE_ACCURACY_VALUE','Maximum Tolerance applied to model');
#165=(
NAMED_UNIT(*)
SI_UNIT($,.STERADIAN.)
SOLID_ANGLE_UNIT()
);
#166=(
NAMED_UNIT(*)
PLANE_ANGLE_UNIT()
SI_UNIT($,.RADIAN.)
);
#167=(
LENGTH_UNIT()
NAMED_UNIT(*)
SI_UNIT(.MILLI.,.METRE.)
);
#168=PRODUCT_DEFINITION_SHAPE('','',#169);
#169=PRODUCT_DEFINITION('','',#171,#170);
#170=DESIGN_CONTEXT('',#177,'design');
#171=PRODUCT_DEFINITION_FORMATION_WITH_SPECIFIED_SOURCE('','',#173,
 .NOT_KNOWN.);
#172=PRODUCT_RELATED_PRODUCT_CATEGORY('','',(#173));
#173=PRODUCT('PSE-06G','PSE-06G','PSE-06G',(#175));
#174=PRODUCT_CATEGORY('','');
#175=MECHANICAL_CONTEXT('',#177,'mechanical');
#176=APPLICATION_PROTOCOL_DEFINITION('international standard',
'config_control_design',2010,#177);
#177=APPLICATION_CONTEXT(
'configuration controlled 3D designs of mechanical parts and assemblie
s');
ENDSEC;
END-ISO-10303-21;
