ISO-10303-21;
HEADER;
/* Generated by software containing ST-Developer
 * from STEP Tools, Inc. (www.steptools.com) 
 */
/* OPTION: using custom renumber hook */

FILE_DESCRIPTION(
/* description */ ('STEP AP203'),
/* implementation_level */ '2;1');

FILE_NAME(
/* name */ 'SDB-16',
/* time_stamp */ '2024-05-13T14:09:50+02:00',
/* author */ ('License CC BY-ND 4.0'),
/* organization */ ('CADENAS'),
/* preprocessor_version */ 'ST-DEVELOPER v19.3',
/* originating_system */ 'PARTsolutions',
/* authorisation */ '  ');

FILE_SCHEMA (('CONFIG_CONTROL_DESIGN'));
ENDSEC;

DATA;
#10=PROPERTY_DEFINITION_REPRESENTATION(#14,#12);
#11=PROPERTY_DEFINITION_REPRESENTATION(#15,#13);
#12=REPRESENTATION('',(#16),#699);
#13=REPRESENTATION('',(#17),#699);
#14=PROPERTY_DEFINITION('pmi validation property','',#704);
#15=PROPERTY_DEFINITION('pmi validation property','',#704);
#16=VALUE_REPRESENTATION_ITEM('number of annotations',COUNT_MEASURE(0.));
#17=VALUE_REPRESENTATION_ITEM('number of views',COUNT_MEASURE(0.));
#18=SHAPE_REPRESENTATION_RELATIONSHIP('','',#419,#19);
#19=ADVANCED_BREP_SHAPE_REPRESENTATION('',(#417),#699);
#20=VERTEX_LOOP('',#242);
#21=VERTEX_LOOP('',#243);
#22=DEGENERATE_TOROIDAL_SURFACE('',#458,1.23568677460249,8.49926109579415,
 .F.);
#23=DEGENERATE_TOROIDAL_SURFACE('',#461,1.23568677460249,8.49926109579415,
 .F.);
#24=ELLIPSE('',#443,2.17884517267215,2.);
#25=ELLIPSE('',#445,2.17884517267215,2.);
#26=CYLINDRICAL_SURFACE('',#438,7.);
#27=CYLINDRICAL_SURFACE('',#440,7.);
#28=CYLINDRICAL_SURFACE('',#448,2.);
#29=CYLINDRICAL_SURFACE('',#449,2.);
#30=CYLINDRICAL_SURFACE('',#455,2.);
#31=CYLINDRICAL_SURFACE('',#456,2.);
#32=CYLINDRICAL_SURFACE('',#457,2.75);
#33=CYLINDRICAL_SURFACE('',#460,6.);
#34=CYLINDRICAL_SURFACE('',#463,6.);
#35=CYLINDRICAL_SURFACE('',#464,2.75);
#36=CYLINDRICAL_SURFACE('',#465,2.75);
#37=CIRCLE('',#422,7.);
#38=CIRCLE('',#423,6.);
#39=CIRCLE('',#425,2.);
#40=CIRCLE('',#426,2.);
#41=CIRCLE('',#427,2.);
#42=CIRCLE('',#428,2.);
#43=CIRCLE('',#430,2.75);
#44=CIRCLE('',#431,2.75);
#45=CIRCLE('',#433,2.);
#46=CIRCLE('',#434,2.);
#47=CIRCLE('',#436,6.);
#48=CIRCLE('',#437,7.);
#49=CIRCLE('',#439,7.);
#50=CIRCLE('',#441,7.);
#51=CIRCLE('',#447,2.75);
#52=CIRCLE('',#451,2.75);
#53=CIRCLE('',#453,2.75);
#54=CIRCLE('',#454,2.75);
#55=CIRCLE('',#459,6.);
#56=CIRCLE('',#462,6.);
#57=ORIENTED_EDGE('',*,*,#157,.T.);
#58=ORIENTED_EDGE('',*,*,#158,.F.);
#59=ORIENTED_EDGE('',*,*,#159,.T.);
#60=ORIENTED_EDGE('',*,*,#160,.T.);
#61=ORIENTED_EDGE('',*,*,#161,.T.);
#62=ORIENTED_EDGE('',*,*,#162,.T.);
#63=ORIENTED_EDGE('',*,*,#163,.T.);
#64=ORIENTED_EDGE('',*,*,#164,.F.);
#65=ORIENTED_EDGE('',*,*,#165,.F.);
#66=ORIENTED_EDGE('',*,*,#166,.F.);
#67=ORIENTED_EDGE('',*,*,#157,.F.);
#68=ORIENTED_EDGE('',*,*,#167,.T.);
#69=ORIENTED_EDGE('',*,*,#168,.T.);
#70=ORIENTED_EDGE('',*,*,#169,.T.);
#71=ORIENTED_EDGE('',*,*,#170,.T.);
#72=ORIENTED_EDGE('',*,*,#171,.T.);
#73=ORIENTED_EDGE('',*,*,#172,.T.);
#74=ORIENTED_EDGE('',*,*,#173,.T.);
#75=ORIENTED_EDGE('',*,*,#174,.T.);
#76=ORIENTED_EDGE('',*,*,#175,.T.);
#77=ORIENTED_EDGE('',*,*,#165,.T.);
#78=ORIENTED_EDGE('',*,*,#176,.F.);
#79=ORIENTED_EDGE('',*,*,#177,.F.);
#80=ORIENTED_EDGE('',*,*,#178,.T.);
#81=ORIENTED_EDGE('',*,*,#177,.T.);
#82=ORIENTED_EDGE('',*,*,#179,.T.);
#83=ORIENTED_EDGE('',*,*,#180,.T.);
#84=ORIENTED_EDGE('',*,*,#181,.F.);
#85=ORIENTED_EDGE('',*,*,#182,.F.);
#86=ORIENTED_EDGE('',*,*,#183,.F.);
#87=ORIENTED_EDGE('',*,*,#159,.F.);
#88=ORIENTED_EDGE('',*,*,#184,.T.);
#89=ORIENTED_EDGE('',*,*,#185,.F.);
#90=ORIENTED_EDGE('',*,*,#186,.T.);
#91=ORIENTED_EDGE('',*,*,#163,.F.);
#92=ORIENTED_EDGE('',*,*,#187,.F.);
#93=ORIENTED_EDGE('',*,*,#188,.F.);
#94=ORIENTED_EDGE('',*,*,#180,.F.);
#95=ORIENTED_EDGE('',*,*,#189,.F.);
#96=ORIENTED_EDGE('',*,*,#167,.F.);
#97=ORIENTED_EDGE('',*,*,#161,.F.);
#98=ORIENTED_EDGE('',*,*,#190,.T.);
#99=ORIENTED_EDGE('',*,*,#191,.F.);
#100=ORIENTED_EDGE('',*,*,#192,.T.);
#101=ORIENTED_EDGE('',*,*,#187,.T.);
#102=ORIENTED_EDGE('',*,*,#173,.F.);
#103=ORIENTED_EDGE('',*,*,#193,.F.);
#104=ORIENTED_EDGE('',*,*,#190,.F.);
#105=ORIENTED_EDGE('',*,*,#160,.F.);
#106=ORIENTED_EDGE('',*,*,#183,.T.);
#107=ORIENTED_EDGE('',*,*,#194,.F.);
#108=ORIENTED_EDGE('',*,*,#195,.F.);
#109=ORIENTED_EDGE('',*,*,#181,.T.);
#110=ORIENTED_EDGE('',*,*,#188,.T.);
#111=ORIENTED_EDGE('',*,*,#192,.F.);
#112=ORIENTED_EDGE('',*,*,#196,.F.);
#113=ORIENTED_EDGE('',*,*,#197,.F.);
#114=ORIENTED_EDGE('',*,*,#189,.T.);
#115=ORIENTED_EDGE('',*,*,#193,.T.);
#116=ORIENTED_EDGE('',*,*,#198,.T.);
#117=ORIENTED_EDGE('',*,*,#168,.F.);
#118=ORIENTED_EDGE('',*,*,#194,.T.);
#119=ORIENTED_EDGE('',*,*,#199,.T.);
#120=ORIENTED_EDGE('',*,*,#169,.F.);
#121=ORIENTED_EDGE('',*,*,#198,.F.);
#122=ORIENTED_EDGE('',*,*,#195,.T.);
#123=ORIENTED_EDGE('',*,*,#200,.T.);
#124=ORIENTED_EDGE('',*,*,#171,.F.);
#125=ORIENTED_EDGE('',*,*,#201,.F.);
#126=ORIENTED_EDGE('',*,*,#202,.F.);
#127=ORIENTED_EDGE('',*,*,#191,.T.);
#128=ORIENTED_EDGE('',*,*,#172,.F.);
#129=ORIENTED_EDGE('',*,*,#200,.F.);
#130=ORIENTED_EDGE('',*,*,#196,.T.);
#131=ORIENTED_EDGE('',*,*,#203,.F.);
#132=ORIENTED_EDGE('',*,*,#204,.F.);
#133=ORIENTED_EDGE('',*,*,#170,.F.);
#134=ORIENTED_EDGE('',*,*,#199,.F.);
#135=ORIENTED_EDGE('',*,*,#182,.T.);
#136=ORIENTED_EDGE('',*,*,#201,.T.);
#137=ORIENTED_EDGE('',*,*,#164,.T.);
#138=ORIENTED_EDGE('',*,*,#186,.F.);
#139=ORIENTED_EDGE('',*,*,#179,.F.);
#140=ORIENTED_EDGE('',*,*,#176,.T.);
#141=ORIENTED_EDGE('',*,*,#166,.T.);
#142=ORIENTED_EDGE('',*,*,#178,.F.);
#143=ORIENTED_EDGE('',*,*,#184,.F.);
#144=ORIENTED_EDGE('',*,*,#158,.T.);
#145=ORIENTED_EDGE('',*,*,#202,.T.);
#146=ORIENTED_EDGE('',*,*,#197,.T.);
#147=ORIENTED_EDGE('',*,*,#205,.T.);
#148=ORIENTED_EDGE('',*,*,#205,.F.);
#149=ORIENTED_EDGE('',*,*,#185,.T.);
#150=ORIENTED_EDGE('',*,*,#206,.F.);
#151=ORIENTED_EDGE('',*,*,#162,.F.);
#152=ORIENTED_EDGE('',*,*,#206,.T.);
#153=ORIENTED_EDGE('',*,*,#204,.T.);
#154=ORIENTED_EDGE('',*,*,#175,.F.);
#155=ORIENTED_EDGE('',*,*,#203,.T.);
#156=ORIENTED_EDGE('',*,*,#174,.F.);
#157=EDGE_CURVE('',#207,#208,#245,.T.);
#158=EDGE_CURVE('',#209,#208,#246,.T.);
#159=EDGE_CURVE('',#209,#210,#247,.T.);
#160=EDGE_CURVE('',#210,#211,#248,.T.);
#161=EDGE_CURVE('',#211,#207,#37,.T.);
#162=EDGE_CURVE('',#212,#212,#38,.T.);
#163=EDGE_CURVE('',#213,#214,#249,.T.);
#164=EDGE_CURVE('',#215,#214,#39,.T.);
#165=EDGE_CURVE('',#216,#215,#250,.T.);
#166=EDGE_CURVE('',#208,#216,#40,.T.);
#167=EDGE_CURVE('',#207,#217,#251,.T.);
#168=EDGE_CURVE('',#217,#218,#252,.T.);
#169=EDGE_CURVE('',#218,#219,#41,.T.);
#170=EDGE_CURVE('',#219,#220,#253,.T.);
#171=EDGE_CURVE('',#220,#221,#42,.T.);
#172=EDGE_CURVE('',#221,#222,#254,.T.);
#173=EDGE_CURVE('',#222,#213,#255,.T.);
#174=EDGE_CURVE('',#223,#223,#43,.T.);
#175=EDGE_CURVE('',#224,#224,#44,.T.);
#176=EDGE_CURVE('',#225,#215,#256,.T.);
#177=EDGE_CURVE('',#226,#225,#257,.T.);
#178=EDGE_CURVE('',#226,#216,#258,.T.);
#179=EDGE_CURVE('',#225,#227,#45,.T.);
#180=EDGE_CURVE('',#227,#228,#259,.T.);
#181=EDGE_CURVE('',#229,#228,#260,.T.);
#182=EDGE_CURVE('',#230,#229,#261,.T.);
#183=EDGE_CURVE('',#210,#230,#262,.T.);
#184=EDGE_CURVE('',#209,#226,#46,.T.);
#185=EDGE_CURVE('',#231,#231,#47,.F.);
#186=EDGE_CURVE('',#227,#214,#263,.T.);
#187=EDGE_CURVE('',#232,#213,#48,.T.);
#188=EDGE_CURVE('',#228,#232,#264,.T.);
#189=EDGE_CURVE('',#217,#233,#49,.T.);
#190=EDGE_CURVE('',#211,#233,#265,.T.);
#191=EDGE_CURVE('',#234,#222,#50,.T.);
#192=EDGE_CURVE('',#234,#232,#266,.T.);
#193=EDGE_CURVE('',#233,#235,#267,.T.);
#194=EDGE_CURVE('',#235,#230,#24,.F.);
#195=EDGE_CURVE('',#229,#236,#25,.F.);
#196=EDGE_CURVE('',#236,#234,#268,.T.);
#197=EDGE_CURVE('',#237,#237,#51,.T.);
#198=EDGE_CURVE('',#235,#218,#269,.T.);
#199=EDGE_CURVE('',#230,#219,#270,.T.);
#200=EDGE_CURVE('',#236,#221,#271,.T.);
#201=EDGE_CURVE('',#229,#220,#272,.T.);
#202=EDGE_CURVE('',#238,#238,#52,.T.);
#203=EDGE_CURVE('',#239,#239,#53,.T.);
#204=EDGE_CURVE('',#240,#240,#54,.T.);
#205=EDGE_CURVE('',#241,#241,#55,.T.);
#206=EDGE_CURVE('',#244,#244,#56,.T.);
#207=VERTEX_POINT('',#589);
#208=VERTEX_POINT('',#590);
#209=VERTEX_POINT('',#592);
#210=VERTEX_POINT('',#594);
#211=VERTEX_POINT('',#596);
#212=VERTEX_POINT('',#599);
#213=VERTEX_POINT('',#602);
#214=VERTEX_POINT('',#603);
#215=VERTEX_POINT('',#605);
#216=VERTEX_POINT('',#607);
#217=VERTEX_POINT('',#610);
#218=VERTEX_POINT('',#612);
#219=VERTEX_POINT('',#614);
#220=VERTEX_POINT('',#616);
#221=VERTEX_POINT('',#618);
#222=VERTEX_POINT('',#620);
#223=VERTEX_POINT('',#624);
#224=VERTEX_POINT('',#626);
#225=VERTEX_POINT('',#628);
#226=VERTEX_POINT('',#630);
#227=VERTEX_POINT('',#634);
#228=VERTEX_POINT('',#636);
#229=VERTEX_POINT('',#638);
#230=VERTEX_POINT('',#640);
#231=VERTEX_POINT('',#645);
#232=VERTEX_POINT('',#648);
#233=VERTEX_POINT('',#652);
#234=VERTEX_POINT('',#656);
#235=VERTEX_POINT('',#660);
#236=VERTEX_POINT('',#664);
#237=VERTEX_POINT('',#668);
#238=VERTEX_POINT('',#677);
#239=VERTEX_POINT('',#680);
#240=VERTEX_POINT('',#682);
#241=VERTEX_POINT('',#688);
#242=VERTEX_POINT('',#689);
#243=VERTEX_POINT('',#692);
#244=VERTEX_POINT('',#694);
#245=LINE('',#588,#273);
#246=LINE('',#591,#274);
#247=LINE('',#593,#275);
#248=LINE('',#595,#276);
#249=LINE('',#601,#277);
#250=LINE('',#606,#278);
#251=LINE('',#609,#279);
#252=LINE('',#611,#280);
#253=LINE('',#615,#281);
#254=LINE('',#619,#282);
#255=LINE('',#621,#283);
#256=LINE('',#627,#284);
#257=LINE('',#629,#285);
#258=LINE('',#631,#286);
#259=LINE('',#635,#287);
#260=LINE('',#637,#288);
#261=LINE('',#639,#289);
#262=LINE('',#641,#290);
#263=LINE('',#646,#291);
#264=LINE('',#649,#292);
#265=LINE('',#653,#293);
#266=LINE('',#657,#294);
#267=LINE('',#659,#295);
#268=LINE('',#665,#296);
#269=LINE('',#669,#297);
#270=LINE('',#671,#298);
#271=LINE('',#673,#299);
#272=LINE('',#674,#300);
#273=VECTOR('',#470,1000.);
#274=VECTOR('',#471,1000.);
#275=VECTOR('',#472,1000.);
#276=VECTOR('',#473,1000.);
#277=VECTOR('',#480,1000.);
#278=VECTOR('',#483,1000.);
#279=VECTOR('',#486,1000.);
#280=VECTOR('',#487,1000.);
#281=VECTOR('',#490,1000.);
#282=VECTOR('',#493,1000.);
#283=VECTOR('',#494,1000.);
#284=VECTOR('',#501,1000.);
#285=VECTOR('',#502,1000.);
#286=VECTOR('',#503,1000.);
#287=VECTOR('',#508,1000.);
#288=VECTOR('',#509,1000.);
#289=VECTOR('',#510,1000.);
#290=VECTOR('',#511,1000.);
#291=VECTOR('',#518,1000.);
#292=VECTOR('',#521,1000.);
#293=VECTOR('',#526,1000.);
#294=VECTOR('',#531,1000.);
#295=VECTOR('',#534,1000.);
#296=VECTOR('',#541,1000.);
#297=VECTOR('',#546,1000.);
#298=VECTOR('',#549,1000.);
#299=VECTOR('',#552,1000.);
#300=VECTOR('',#553,1000.);
#301=EDGE_LOOP('',(#57,#58,#59,#60,#61));
#302=EDGE_LOOP('',(#62));
#303=EDGE_LOOP('',(#63,#64,#65,#66,#67,#68,#69,#70,#71,#72,#73,#74));
#304=EDGE_LOOP('',(#75));
#305=EDGE_LOOP('',(#76));
#306=EDGE_LOOP('',(#77,#78,#79,#80));
#307=EDGE_LOOP('',(#81,#82,#83,#84,#85,#86,#87,#88));
#308=EDGE_LOOP('',(#89));
#309=EDGE_LOOP('',(#90,#91,#92,#93,#94));
#310=EDGE_LOOP('',(#95,#96,#97,#98));
#311=EDGE_LOOP('',(#99,#100,#101,#102));
#312=EDGE_LOOP('',(#103,#104,#105,#106,#107));
#313=EDGE_LOOP('',(#108,#109,#110,#111,#112));
#314=EDGE_LOOP('',(#113));
#315=EDGE_LOOP('',(#114,#115,#116,#117));
#316=EDGE_LOOP('',(#118,#119,#120,#121));
#317=EDGE_LOOP('',(#122,#123,#124,#125));
#318=EDGE_LOOP('',(#126));
#319=EDGE_LOOP('',(#127,#128,#129,#130));
#320=EDGE_LOOP('',(#131));
#321=EDGE_LOOP('',(#132));
#322=EDGE_LOOP('',(#133,#134,#135,#136));
#323=EDGE_LOOP('',(#137,#138,#139,#140));
#324=EDGE_LOOP('',(#141,#142,#143,#144));
#325=EDGE_LOOP('',(#145));
#326=EDGE_LOOP('',(#146));
#327=EDGE_LOOP('',(#147));
#328=EDGE_LOOP('',(#148));
#329=EDGE_LOOP('',(#149));
#330=EDGE_LOOP('',(#150));
#331=EDGE_LOOP('',(#151));
#332=EDGE_LOOP('',(#152));
#333=EDGE_LOOP('',(#153));
#334=EDGE_LOOP('',(#154));
#335=EDGE_LOOP('',(#155));
#336=EDGE_LOOP('',(#156));
#337=FACE_BOUND('',#301,.T.);
#338=FACE_BOUND('',#302,.T.);
#339=FACE_BOUND('',#303,.T.);
#340=FACE_BOUND('',#304,.T.);
#341=FACE_BOUND('',#305,.T.);
#342=FACE_BOUND('',#306,.T.);
#343=FACE_BOUND('',#307,.T.);
#344=FACE_BOUND('',#308,.T.);
#345=FACE_BOUND('',#309,.T.);
#346=FACE_BOUND('',#310,.T.);
#347=FACE_BOUND('',#311,.T.);
#348=FACE_BOUND('',#312,.T.);
#349=FACE_BOUND('',#313,.T.);
#350=FACE_BOUND('',#314,.T.);
#351=FACE_BOUND('',#315,.T.);
#352=FACE_BOUND('',#316,.T.);
#353=FACE_BOUND('',#317,.T.);
#354=FACE_BOUND('',#318,.T.);
#355=FACE_BOUND('',#319,.T.);
#356=FACE_BOUND('',#320,.T.);
#357=FACE_BOUND('',#321,.T.);
#358=FACE_BOUND('',#322,.T.);
#359=FACE_BOUND('',#323,.T.);
#360=FACE_BOUND('',#324,.T.);
#361=FACE_BOUND('',#325,.T.);
#362=FACE_BOUND('',#326,.T.);
#363=FACE_BOUND('',#327,.T.);
#364=FACE_BOUND('',#20,.T.);
#365=FACE_BOUND('',#328,.T.);
#366=FACE_BOUND('',#329,.T.);
#367=FACE_BOUND('',#21,.T.);
#368=FACE_BOUND('',#330,.T.);
#369=FACE_BOUND('',#331,.T.);
#370=FACE_BOUND('',#332,.T.);
#371=FACE_BOUND('',#333,.T.);
#372=FACE_BOUND('',#334,.T.);
#373=FACE_BOUND('',#335,.T.);
#374=FACE_BOUND('',#336,.T.);
#375=PLANE('',#421);
#376=PLANE('',#424);
#377=PLANE('',#429);
#378=PLANE('',#432);
#379=PLANE('',#435);
#380=PLANE('',#442);
#381=PLANE('',#444);
#382=PLANE('',#446);
#383=PLANE('',#450);
#384=PLANE('',#452);
#385=ADVANCED_FACE('',(#337,#338),#375,.T.);
#386=ADVANCED_FACE('',(#339),#376,.F.);
#387=ADVANCED_FACE('',(#340,#341,#342),#377,.F.);
#388=ADVANCED_FACE('',(#343),#378,.F.);
#389=ADVANCED_FACE('',(#344,#345),#379,.F.);
#390=ADVANCED_FACE('',(#346),#26,.T.);
#391=ADVANCED_FACE('',(#347),#27,.T.);
#392=ADVANCED_FACE('',(#348),#380,.F.);
#393=ADVANCED_FACE('',(#349),#381,.F.);
#394=ADVANCED_FACE('',(#350,#351),#382,.T.);
#395=ADVANCED_FACE('',(#352),#28,.F.);
#396=ADVANCED_FACE('',(#353),#29,.F.);
#397=ADVANCED_FACE('',(#354,#355),#383,.T.);
#398=ADVANCED_FACE('',(#356,#357,#358),#384,.T.);
#399=ADVANCED_FACE('',(#359),#30,.T.);
#400=ADVANCED_FACE('',(#360),#31,.T.);
#401=ADVANCED_FACE('',(#361,#362),#32,.T.);
#402=ADVANCED_FACE('',(#363,#364),#22,.F.);
#403=ADVANCED_FACE('',(#365,#366),#33,.T.);
#404=ADVANCED_FACE('',(#367,#368),#23,.F.);
#405=ADVANCED_FACE('',(#369,#370),#34,.T.);
#406=ADVANCED_FACE('',(#371,#372),#35,.F.);
#407=ADVANCED_FACE('',(#373,#374),#36,.F.);
#408=CLOSED_SHELL('',(#385,#386,#387,#388,#389,#390,#391,#392,#393,#394,
#395,#396,#397,#398,#399,#400,#401,#402,#403,#404,#405,#406,#407));
#409=STYLED_ITEM('',(#410),#417);
#410=PRESENTATION_STYLE_ASSIGNMENT((#411));
#411=SURFACE_STYLE_USAGE(.BOTH.,#412);
#412=SURFACE_SIDE_STYLE('',(#413));
#413=SURFACE_STYLE_FILL_AREA(#414);
#414=FILL_AREA_STYLE('',(#415));
#415=FILL_AREA_STYLE_COLOUR('',#416);
#416=COLOUR_RGB('',0.689999997615814,0.689999997615814,0.689999997615814);
#417=MANIFOLD_SOLID_BREP('SDB-16',#408);
#418=SHAPE_DEFINITION_REPRESENTATION(#704,#419);
#419=SHAPE_REPRESENTATION('SDB-16',(#420),#699);
#420=AXIS2_PLACEMENT_3D('',#586,#466,#467);
#421=AXIS2_PLACEMENT_3D('',#587,#468,#469);
#422=AXIS2_PLACEMENT_3D('',#597,#474,#475);
#423=AXIS2_PLACEMENT_3D('',#598,#476,#477);
#424=AXIS2_PLACEMENT_3D('',#600,#478,#479);
#425=AXIS2_PLACEMENT_3D('',#604,#481,#482);
#426=AXIS2_PLACEMENT_3D('',#608,#484,#485);
#427=AXIS2_PLACEMENT_3D('',#613,#488,#489);
#428=AXIS2_PLACEMENT_3D('',#617,#491,#492);
#429=AXIS2_PLACEMENT_3D('',#622,#495,#496);
#430=AXIS2_PLACEMENT_3D('',#623,#497,#498);
#431=AXIS2_PLACEMENT_3D('',#625,#499,#500);
#432=AXIS2_PLACEMENT_3D('',#632,#504,#505);
#433=AXIS2_PLACEMENT_3D('',#633,#506,#507);
#434=AXIS2_PLACEMENT_3D('',#642,#512,#513);
#435=AXIS2_PLACEMENT_3D('',#643,#514,#515);
#436=AXIS2_PLACEMENT_3D('',#644,#516,#517);
#437=AXIS2_PLACEMENT_3D('',#647,#519,#520);
#438=AXIS2_PLACEMENT_3D('',#650,#522,#523);
#439=AXIS2_PLACEMENT_3D('',#651,#524,#525);
#440=AXIS2_PLACEMENT_3D('',#654,#527,#528);
#441=AXIS2_PLACEMENT_3D('',#655,#529,#530);
#442=AXIS2_PLACEMENT_3D('',#658,#532,#533);
#443=AXIS2_PLACEMENT_3D('',#661,#535,#536);
#444=AXIS2_PLACEMENT_3D('',#662,#537,#538);
#445=AXIS2_PLACEMENT_3D('',#663,#539,#540);
#446=AXIS2_PLACEMENT_3D('',#666,#542,#543);
#447=AXIS2_PLACEMENT_3D('',#667,#544,#545);
#448=AXIS2_PLACEMENT_3D('',#670,#547,#548);
#449=AXIS2_PLACEMENT_3D('',#672,#550,#551);
#450=AXIS2_PLACEMENT_3D('',#675,#554,#555);
#451=AXIS2_PLACEMENT_3D('',#676,#556,#557);
#452=AXIS2_PLACEMENT_3D('',#678,#558,#559);
#453=AXIS2_PLACEMENT_3D('',#679,#560,#561);
#454=AXIS2_PLACEMENT_3D('',#681,#562,#563);
#455=AXIS2_PLACEMENT_3D('',#683,#564,#565);
#456=AXIS2_PLACEMENT_3D('',#684,#566,#567);
#457=AXIS2_PLACEMENT_3D('',#685,#568,#569);
#458=AXIS2_PLACEMENT_3D('',#686,#570,#571);
#459=AXIS2_PLACEMENT_3D('',#687,#572,#573);
#460=AXIS2_PLACEMENT_3D('',#690,#574,#575);
#461=AXIS2_PLACEMENT_3D('',#691,#576,#577);
#462=AXIS2_PLACEMENT_3D('',#693,#578,#579);
#463=AXIS2_PLACEMENT_3D('',#695,#580,#581);
#464=AXIS2_PLACEMENT_3D('',#696,#582,#583);
#465=AXIS2_PLACEMENT_3D('',#697,#584,#585);
#466=DIRECTION('',(0.,0.,1.));
#467=DIRECTION('',(1.,0.,0.));
#468=DIRECTION('',(0.,0.,1.));
#469=DIRECTION('',(1.,0.,0.));
#470=DIRECTION('',(0.,-1.,0.));
#471=DIRECTION('',(-1.,0.,0.));
#472=DIRECTION('',(0.,1.,0.));
#473=DIRECTION('',(-0.396771419165926,0.917917447776791,0.));
#474=DIRECTION('',(0.,0.,1.));
#475=DIRECTION('',(1.,0.,0.));
#476=DIRECTION('',(0.,0.,-1.));
#477=DIRECTION('',(-1.,0.,0.));
#478=DIRECTION('',(1.,0.,0.));
#479=DIRECTION('',(0.,0.,-1.));
#480=DIRECTION('',(0.,-1.,0.));
#481=DIRECTION('',(1.,0.,0.));
#482=DIRECTION('',(0.,0.,-1.));
#483=DIRECTION('',(0.,0.,-1.));
#484=DIRECTION('',(1.,0.,0.));
#485=DIRECTION('',(0.,0.,-1.));
#486=DIRECTION('',(0.,0.,-1.));
#487=DIRECTION('',(0.,-1.,2.06514699521049E-17));
#488=DIRECTION('',(1.,0.,0.));
#489=DIRECTION('',(0.,0.,-1.));
#490=DIRECTION('',(0.,0.,-1.));
#491=DIRECTION('',(1.,0.,0.));
#492=DIRECTION('',(0.,0.,-1.));
#493=DIRECTION('',(0.,1.,2.06514699521049E-17));
#494=DIRECTION('',(0.,0.,-1.));
#495=DIRECTION('',(0.,1.,0.));
#496=DIRECTION('',(0.,0.,1.));
#497=DIRECTION('',(0.,1.,0.));
#498=DIRECTION('',(1.,0.,0.));
#499=DIRECTION('',(0.,1.,0.));
#500=DIRECTION('',(1.,0.,0.));
#501=DIRECTION('',(-1.,0.,0.));
#502=DIRECTION('',(0.,0.,-1.));
#503=DIRECTION('',(-1.,0.,0.));
#504=DIRECTION('',(-1.,0.,0.));
#505=DIRECTION('',(0.,0.,1.));
#506=DIRECTION('',(1.,0.,0.));
#507=DIRECTION('',(0.,0.,-1.));
#508=DIRECTION('',(0.,1.,0.));
#509=DIRECTION('',(0.,0.,-1.));
#510=DIRECTION('',(0.,0.,-1.));
#511=DIRECTION('',(0.,0.,-1.));
#512=DIRECTION('',(1.,0.,0.));
#513=DIRECTION('',(0.,0.,-1.));
#514=DIRECTION('',(0.,0.,1.));
#515=DIRECTION('',(1.,0.,0.));
#516=DIRECTION('',(0.,0.,1.));
#517=DIRECTION('',(1.,0.,0.));
#518=DIRECTION('',(-1.,0.,0.));
#519=DIRECTION('',(0.,0.,1.));
#520=DIRECTION('',(1.,0.,0.));
#521=DIRECTION('',(-0.396771419165926,0.917917447776791,0.));
#522=DIRECTION('',(0.,0.,-1.));
#523=DIRECTION('',(-1.,0.,0.));
#524=DIRECTION('',(0.,-2.06514699521049E-17,-1.));
#525=DIRECTION('',(0.,1.,-2.06514699521049E-17));
#526=DIRECTION('',(0.,0.,-1.));
#527=DIRECTION('',(0.,0.,-1.));
#528=DIRECTION('',(-1.,0.,0.));
#529=DIRECTION('',(0.,-2.06514699521049E-17,1.));
#530=DIRECTION('',(0.,-1.,-2.06514699521049E-17));
#531=DIRECTION('',(0.,0.,-1.));
#532=DIRECTION('',(-0.917917447776791,-0.396771419165926,0.));
#533=DIRECTION('',(0.396771419165926,-0.917917447776791,0.));
#534=DIRECTION('',(0.396771419165926,-0.917917447776791,1.89563445912752E-17));
#535=DIRECTION('',(-0.917917447776791,-0.396771419165926,0.));
#536=DIRECTION('',(-0.396771419165926,0.917917447776791,0.));
#537=DIRECTION('',(-0.917917447776791,-0.396771419165926,0.));
#538=DIRECTION('',(0.396771419165926,-0.917917447776791,0.));
#539=DIRECTION('',(-0.917917447776791,-0.396771419165926,0.));
#540=DIRECTION('',(-0.396771419165926,0.917917447776791,0.));
#541=DIRECTION('',(-0.396771419165926,0.917917447776791,1.89563445912752E-17));
#542=DIRECTION('',(0.,-2.06514699521049E-17,-1.));
#543=DIRECTION('',(0.,1.,-2.06514699521049E-17));
#544=DIRECTION('',(0.,-2.06514699521049E-17,-1.));
#545=DIRECTION('',(0.,1.,-2.06514699521049E-17));
#546=DIRECTION('',(-1.,0.,0.));
#547=DIRECTION('',(-1.,0.,0.));
#548=DIRECTION('',(0.,0.,1.));
#549=DIRECTION('',(-1.,0.,0.));
#550=DIRECTION('',(-1.,0.,0.));
#551=DIRECTION('',(0.,0.,1.));
#552=DIRECTION('',(-1.,0.,0.));
#553=DIRECTION('',(-1.,0.,0.));
#554=DIRECTION('',(0.,-2.06514699521049E-17,1.));
#555=DIRECTION('',(0.,-1.,-2.06514699521049E-17));
#556=DIRECTION('',(0.,-2.06514699521049E-17,1.));
#557=DIRECTION('',(0.,-1.,-2.06514699521049E-17));
#558=DIRECTION('',(0.,1.,0.));
#559=DIRECTION('',(0.,0.,1.));
#560=DIRECTION('',(0.,1.,0.));
#561=DIRECTION('',(1.,0.,0.));
#562=DIRECTION('',(0.,1.,0.));
#563=DIRECTION('',(1.,0.,0.));
#564=DIRECTION('',(-1.,0.,0.));
#565=DIRECTION('',(0.,0.,1.));
#566=DIRECTION('',(-1.,0.,0.));
#567=DIRECTION('',(0.,0.,1.));
#568=DIRECTION('',(0.,0.,-1.));
#569=DIRECTION('',(-1.,0.,0.));
#570=DIRECTION('',(0.,0.,-1.));
#571=DIRECTION('',(-1.,0.,0.));
#572=DIRECTION('',(0.,0.,-1.));
#573=DIRECTION('',(-1.,0.,0.));
#574=DIRECTION('',(0.,0.,-1.));
#575=DIRECTION('',(-1.,0.,0.));
#576=DIRECTION('',(0.,0.,-1.));
#577=DIRECTION('',(-1.,0.,0.));
#578=DIRECTION('',(0.,0.,-1.));
#579=DIRECTION('',(-1.,0.,0.));
#580=DIRECTION('',(0.,0.,-1.));
#581=DIRECTION('',(-1.,0.,0.));
#582=DIRECTION('',(0.,-1.,0.));
#583=DIRECTION('',(0.,0.,-1.));
#584=DIRECTION('',(0.,-1.,0.));
#585=DIRECTION('',(0.,0.,-1.));
#586=CARTESIAN_POINT('',(0.,0.,0.));
#587=CARTESIAN_POINT('',(7.,0.,9.05));
#588=CARTESIAN_POINT('',(0.,0.,9.05));
#589=CARTESIAN_POINT('',(0.,0.,9.05));
#590=CARTESIAN_POINT('',(0.,-25.,9.05));
#591=CARTESIAN_POINT('',(25.,-25.,9.05));
#592=CARTESIAN_POINT('',(25.,-25.,9.05));
#593=CARTESIAN_POINT('',(25.,-27.,9.05));
#594=CARTESIAN_POINT('',(25.,-24.,9.05));
#595=CARTESIAN_POINT('',(25.,-24.,9.05));
#596=CARTESIAN_POINT('',(13.4254221344375,2.77739993416149,9.05));
#597=CARTESIAN_POINT('',(7.,0.,9.05));
#598=CARTESIAN_POINT('',(7.,0.,9.05));
#599=CARTESIAN_POINT('',(1.,0.,9.05));
#600=CARTESIAN_POINT('',(0.,0.,9.05));
#601=CARTESIAN_POINT('',(0.,0.,-9.05));
#602=CARTESIAN_POINT('',(0.,0.,-9.05));
#603=CARTESIAN_POINT('',(0.,-25.,-9.05));
#604=CARTESIAN_POINT('',(0.,-25.,-7.05));
#605=CARTESIAN_POINT('',(0.,-27.,-7.05));
#606=CARTESIAN_POINT('',(0.,-27.,9.05));
#607=CARTESIAN_POINT('',(0.,-27.,7.05));
#608=CARTESIAN_POINT('',(0.,-25.,7.05));
#609=CARTESIAN_POINT('',(0.,0.,9.05));
#610=CARTESIAN_POINT('',(0.,0.,6.05));
#611=CARTESIAN_POINT('',(0.,20.,6.05));
#612=CARTESIAN_POINT('',(0.,-22.,6.05));
#613=CARTESIAN_POINT('',(0.,-22.,4.05));
#614=CARTESIAN_POINT('',(0.,-24.,4.05));
#615=CARTESIAN_POINT('',(0.,-24.,4.05));
#616=CARTESIAN_POINT('',(0.,-24.,-4.05));
#617=CARTESIAN_POINT('',(0.,-22.,-4.05));
#618=CARTESIAN_POINT('',(0.,-22.,-6.05));
#619=CARTESIAN_POINT('',(0.,-22.,-6.05));
#620=CARTESIAN_POINT('',(0.,0.,-6.05));
#621=CARTESIAN_POINT('',(0.,0.,9.05));
#622=CARTESIAN_POINT('',(0.,-27.,9.05));
#623=CARTESIAN_POINT('',(20.,-27.,0.));
#624=CARTESIAN_POINT('',(22.75,-27.,0.));
#625=CARTESIAN_POINT('',(5.,-27.,0.));
#626=CARTESIAN_POINT('',(7.75,-27.,0.));
#627=CARTESIAN_POINT('',(25.,-27.,-7.05));
#628=CARTESIAN_POINT('',(25.,-27.,-7.05));
#629=CARTESIAN_POINT('',(25.,-27.,9.05));
#630=CARTESIAN_POINT('',(25.,-27.,7.05));
#631=CARTESIAN_POINT('',(25.,-27.,7.05));
#632=CARTESIAN_POINT('',(25.,-27.,9.05));
#633=CARTESIAN_POINT('',(25.,-25.,-7.05));
#634=CARTESIAN_POINT('',(25.,-25.,-9.05));
#635=CARTESIAN_POINT('',(25.,-27.,-9.05));
#636=CARTESIAN_POINT('',(25.,-24.,-9.05));
#637=CARTESIAN_POINT('',(25.,-24.,9.05));
#638=CARTESIAN_POINT('',(25.,-24.,-4.05));
#639=CARTESIAN_POINT('',(25.,-24.,4.05));
#640=CARTESIAN_POINT('',(25.,-24.,4.05));
#641=CARTESIAN_POINT('',(25.,-24.,9.05));
#642=CARTESIAN_POINT('',(25.,-25.,7.05));
#643=CARTESIAN_POINT('',(7.,0.,-9.05));
#644=CARTESIAN_POINT('',(7.,0.,-9.05));
#645=CARTESIAN_POINT('',(13.,0.,-9.05));
#646=CARTESIAN_POINT('',(25.,-25.,-9.05));
#647=CARTESIAN_POINT('',(7.,0.,-9.05));
#648=CARTESIAN_POINT('',(13.4254221344375,2.77739993416149,-9.05));
#649=CARTESIAN_POINT('',(25.,-24.,-9.05));
#650=CARTESIAN_POINT('',(7.,0.,9.05));
#651=CARTESIAN_POINT('',(7.,0.,6.05));
#652=CARTESIAN_POINT('',(13.4254221344375,2.77739993416149,6.05));
#653=CARTESIAN_POINT('',(13.4254221344375,2.77739993416149,9.05));
#654=CARTESIAN_POINT('',(7.,0.,9.05));
#655=CARTESIAN_POINT('',(7.,0.,-6.05));
#656=CARTESIAN_POINT('',(13.4254221344375,2.77739993416149,-6.05));
#657=CARTESIAN_POINT('',(13.4254221344375,2.77739993416149,9.05));
#658=CARTESIAN_POINT('',(25.,-24.,9.05));
#659=CARTESIAN_POINT('',(25.,-24.,6.05));
#660=CARTESIAN_POINT('',(24.135496508696,-22.,6.05));
#661=CARTESIAN_POINT('',(24.135496508696,-22.,4.05));
#662=CARTESIAN_POINT('',(25.,-24.,9.05));
#663=CARTESIAN_POINT('',(24.135496508696,-22.,-4.05));
#664=CARTESIAN_POINT('',(24.135496508696,-22.,-6.05));
#665=CARTESIAN_POINT('',(25.,-24.,-6.05));
#666=CARTESIAN_POINT('',(25.,20.,6.05));
#667=CARTESIAN_POINT('',(7.,0.,6.05));
#668=CARTESIAN_POINT('',(7.,2.75,6.05));
#669=CARTESIAN_POINT('',(25.,-22.,6.05));
#670=CARTESIAN_POINT('',(25.,-22.,4.05));
#671=CARTESIAN_POINT('',(25.,-24.,4.05));
#672=CARTESIAN_POINT('',(25.,-22.,-4.05));
#673=CARTESIAN_POINT('',(25.,-22.,-6.05));
#674=CARTESIAN_POINT('',(25.,-24.,-4.05));
#675=CARTESIAN_POINT('',(25.,-22.,-6.05));
#676=CARTESIAN_POINT('',(7.,0.,-6.05));
#677=CARTESIAN_POINT('',(7.,-2.75,-6.05));
#678=CARTESIAN_POINT('',(25.,-24.,4.05));
#679=CARTESIAN_POINT('',(20.,-24.,0.));
#680=CARTESIAN_POINT('',(22.75,-24.,0.));
#681=CARTESIAN_POINT('',(5.,-24.,0.));
#682=CARTESIAN_POINT('',(7.75,-24.,0.));
#683=CARTESIAN_POINT('',(25.,-25.,-7.05));
#684=CARTESIAN_POINT('',(25.,-25.,7.05));
#685=CARTESIAN_POINT('',(7.,0.,-14.));
#686=CARTESIAN_POINT('',(7.,0.,-5.59104540566709));
#687=CARTESIAN_POINT('',(7.,0.,-10.05));
#688=CARTESIAN_POINT('',(1.,0.,-10.05));
#689=CARTESIAN_POINT('',(7.,2.16840434497101E-16,-14.));
#690=CARTESIAN_POINT('',(7.,0.,-14.));
#691=CARTESIAN_POINT('',(7.,0.,5.5910454056671));
#692=CARTESIAN_POINT('',(7.,-1.51788304147971E-15,14.));
#693=CARTESIAN_POINT('',(7.,0.,10.05));
#694=CARTESIAN_POINT('',(1.,0.,10.05));
#695=CARTESIAN_POINT('',(7.,0.,-14.));
#696=CARTESIAN_POINT('',(5.,-24.,0.));
#697=CARTESIAN_POINT('',(20.,-24.,0.));
#698=MECHANICAL_DESIGN_GEOMETRIC_PRESENTATION_REPRESENTATION('',(#409),
#699);
#699=(
GEOMETRIC_REPRESENTATION_CONTEXT(3)
GLOBAL_UNCERTAINTY_ASSIGNED_CONTEXT((#700))
GLOBAL_UNIT_ASSIGNED_CONTEXT((#703,#702,#701))
REPRESENTATION_CONTEXT('SDB-16','TOP_LEVEL_ASSEMBLY_PART')
);
#700=UNCERTAINTY_MEASURE_WITH_UNIT(LENGTH_MEASURE(0.005),#703,
'DISTANCE_ACCURACY_VALUE','Maximum Tolerance applied to model');
#701=(
NAMED_UNIT(*)
SI_UNIT($,.STERADIAN.)
SOLID_ANGLE_UNIT()
);
#702=(
NAMED_UNIT(*)
PLANE_ANGLE_UNIT()
SI_UNIT($,.RADIAN.)
);
#703=(
LENGTH_UNIT()
NAMED_UNIT(*)
SI_UNIT(.MILLI.,.METRE.)
);
#704=PRODUCT_DEFINITION_SHAPE('','',#705);
#705=PRODUCT_DEFINITION('','',#707,#706);
#706=DESIGN_CONTEXT('',#713,'design');
#707=PRODUCT_DEFINITION_FORMATION_WITH_SPECIFIED_SOURCE('','',#709,
 .NOT_KNOWN.);
#708=PRODUCT_RELATED_PRODUCT_CATEGORY('','',(#709));
#709=PRODUCT('SDB-16','SDB-16','SDB-16',(#711));
#710=PRODUCT_CATEGORY('','');
#711=MECHANICAL_CONTEXT('',#713,'mechanical');
#712=APPLICATION_PROTOCOL_DEFINITION('international standard',
'config_control_design',2010,#713);
#713=APPLICATION_CONTEXT(
'configuration controlled 3D designs of mechanical parts and assemblie
s');
ENDSEC;
END-ISO-10303-21;
